 0
SECTION
 2
HEADER
 9
$ACADVER
 1
AC1009
 9
$LIMMIN
10
0.0
20
0.0
 9
$LIMMAX
10
410
20
287
 9
$LTSCALE
40
1.0
 9
$ATTMODE
70
0
 9
$DIMSCALE
40
1.0
 9
$DIMEXO
40
0.0
 9
$LUNITS
70
2
 9
$LUPREC
70
4
 9
$AUNITS
70
0
 9
$AUPREC
70
0
 9
$ELEVATION
40
0.0
 9
$THICKNESS
40
0.0
 9
$LIMCHECK
70
0
 9
$BLIPMODE
70
1
 9
$ANGBASE
50
0.0
 9
$ANGDIR
70
0
 9
$PDMODE
70
67
 9
$PDSIZE
40
-1
 9
$COORDS
70
2
 9
$DWGCODEPAGE
 3
iso8859-1
 0
ENDSEC
0
SECTION
2
TABLES
0
TABLE
2
LTYPE
70
10
0
LTYPE
2
CONTINUOUS
70
64
3
Default-Style
72
65
73
0
40
0
0
LTYPE
2
DASHED_LINE_WIDE
70
64
3
Dashed Line Wide
72
65
73
2
40
6.25
49
5
49
-1.25
0
LTYPE
2
DASHED_LINE_NARROW
70
64
3
Dashed Line Narrow
72
65
73
2
40
12.5
49
10
49
-2.5
0
LTYPE
2
DASH-DOT_LINE_WIDE
70
64
3
Dash-Dot Line Wide
72
65
73
4
40
13.75
49
10
49
-1.25
49
1.25
49
-1.25
0
LTYPE
2
DASH-DOT_LINE_NARROW
70
64
3
Dash-Dot line Narrow
72
65
73
4
40
27.5
49
20
49
-2.5
49
2.5
49
-2.5
0
LTYPE
2
DASH-DOT-DOT_LINE_WIDE
70
64
3
Dash-Dot-Dot Line Wide
72
65
73
6
40
16.25
49
10
49
-1.25
49
1.25
49
-1.25
49
1.25
49
-1.25
0
LTYPE
2
DASH-DOT-DOT_LINE_NARROW
70
64
3
Dash-Dot-Dot Line Narrow
72
65
73
6
40
32.5
49
20
49
-2.5
49
2.5
49
-2.5
49
2.5
49
-2.5
0
LTYPE
2
DOTTED_LINE_WIDE
70
64
3
Dotted Line Wide
72
65
73
2
40
6.25
49
1.25
49
-5
0
LTYPE
2
DOTTED_LINE_NARROW
70
64
3
Dotted Line Narrow
72
65
73
2
40
12.5
49
2.5
49
-10
0
LTYPE
2
GEOMETRY_LINE_1
70
64
3
Geometry Line 1
72
65
73
2
40
.5
49
.25
49
-0.25
0
ENDTAB
0
TABLE
2
LAYER
70
15
0
LAYER
2
0
70
64
62
7
6
CONTINUOUS
0
LAYER
2
DRAWING
70
64
62
18
6
CONTINUOUS
0
LAYER
2
HATCHING
70
64
62
18
6
CONTINUOUS
0
LAYER
2
DIMENSION
70
64
62
18
6
CONTINUOUS
0
LAYER
2
TEXT
70
64
62
18
6
CONTINUOUS
0
LAYER
2
BLOCK
70
64
62
18
6
CONTINUOUS
0
LAYER
2
MARKING
70
64
62
-132
6
CONTINUOUS
0
LAYER
2
GEOMETRY
70
64
62
18
6
CONTINUOUS
0
LAYER
2
DOCUMENTATION$DRAWING
70
64
62
18
6
CONTINUOUS
0
LAYER
2
DOCUMENTATION$HATCHING
70
64
62
18
6
CONTINUOUS
0
LAYER
2
DOCUMENTATION$DIMENSION
70
64
62
-18
6
CONTINUOUS
0
LAYER
2
DOCUMENTATION$TEXT
70
64
62
18
6
CONTINUOUS
0
LAYER
2
DOCUMENTATION$BLOCK
70
64
62
18
6
CONTINUOUS
0
LAYER
2
DOCUMENTATION$MARKING
70
64
62
18
6
CONTINUOUS
0
LAYER
2
DOCUMENTATION$GEOMETRY
70
64
62
18
6
CONTINUOUS
0
ENDTAB
0
ENDSEC
0
SECTION
2
BLOCKS
0
ENDSEC
0
SECTION
2
ENTITIES
0
POLYLINE
8
0
62
18
6
CONTINUOUS
66
1
40
0
41
0
70
1
0
VERTEX
8
0
10
-48.86673066
20
-64.72744394
42
1
0
VERTEX
8
0
10
-61.56673066
20
-64.72744394
42
1
0
VERTEX
8
0
10
-48.86673066
20
-64.72744394
0
SEQEND
8
0
0
POLYLINE
8
0
62
18
6
CONTINUOUS
66
1
40
0
41
0
0
VERTEX
8
0
10
-55.21673066
20
-56.26077727
0
VERTEX
8
0
10
-55.21673066
20
-73.19411061
0
SEQEND
8
0
0
POLYLINE
8
0
62
18
6
CONTINUOUS
66
1
40
0
41
0
0
VERTEX
8
0
10
-63.68339733
20
-64.72744394
0
VERTEX
8
0
10
-46.75006399
20
-64.72744394
0
SEQEND
8
0
0
POLYLINE
8
DRAWING
62
18
6
CONTINUOUS
66
1
40
0
41
0
0
VERTEX
8
DRAWING
10
-33.05787649
20
142.0179689
0
VERTEX
8
DRAWING
10
-235.6294911
20
-168.1001504
0
SEQEND
8
DRAWING
0
POLYLINE
8
DRAWING
62
18
6
CONTINUOUS
66
1
40
0
41
0
0
VERTEX
8
DRAWING
10
-235.6294911
20
-168.1001504
0
VERTEX
8
DRAWING
10
103.0371756
20
-168.1001504
0
SEQEND
8
DRAWING
0
POLYLINE
8
DRAWING
62
18
6
CONTINUOUS
66
1
40
0
41
0
0
VERTEX
8
DRAWING
10
103.0371756
20
-168.1001504
0
VERTEX
8
DRAWING
10
-33.05787649
20
142.0179689
0
SEQEND
8
DRAWING
0
POLYLINE
8
DIMENSION
62
18
6
CONTINUOUS
66
1
40
0
41
0
0
VERTEX
8
DIMENSION
10
-235.6294911
20
-168.1001504
0
VERTEX
8
DIMENSION
10
-244.838848
20
-162.0845254
0
SEQEND
8
DIMENSION
0
POLYLINE
8
DIMENSION
62
18
6
CONTINUOUS
66
1
40
0
41
0
0
VERTEX
8
DIMENSION
10
-33.05787649
20
142.0179689
0
VERTEX
8
DIMENSION
10
-42.26723347
20
148.0335939
0
SEQEND
8
DIMENSION
0
POLYLINE
8
DIMENSION
62
18
6
CONTINUOUS
66
1
40
0
41
0
70
1
0
VERTEX
8
DIMENSION
10
-244.0016338
20
-162.6314004
0
VERTEX
8
DIMENSION
10
-243.3176863
20
-161.9018691
0
VERTEX
8
DIMENSION
10
-243.6084478
20
-161.7119414
0
SEQEND
8
DIMENSION
0
POLYLINE
8
DIMENSION
62
18
6
CONTINUOUS
66
1
40
0
41
0
70
1
0
VERTEX
8
DIMENSION
10
-41.4300192
20
147.4867189
0
VERTEX
8
DIMENSION
10
-42.11396667
20
146.7571877
0
VERTEX
8
DIMENSION
10
-41.8232052
20
146.56726
0
SEQEND
8
DIMENSION
0
POLYLINE
8
DIMENSION
62
18
6
CONTINUOUS
66
1
40
0
41
0
0
VERTEX
8
DIMENSION
10
-244.0016338
20
-162.6314004
0
VERTEX
8
DIMENSION
10
-41.4300192
20
147.4867189
0
SEQEND
8
DIMENSION
0
TEXT
8
DIMENSION
62
18
6
CONTINUOUS
10
-144.390255
20
-6.478590724
11
-144.390255
21
-6.478590724
40
4
41
1.25
1
14'7"
50
56.84711207
51
0
71
0
72
1
73
0
0
POLYLINE
8
DIMENSION
62
18
6
CONTINUOUS
66
1
40
0
41
0
0
VERTEX
8
DIMENSION
10
-33.05787649
20
142.0179689
0
VERTEX
8
DIMENSION
10
-22.9851423
20
146.4383791
0
SEQEND
8
DIMENSION
0
POLYLINE
8
DIMENSION
62
18
6
CONTINUOUS
66
1
40
0
41
0
0
VERTEX
8
DIMENSION
10
103.0371756
20
-168.1001504
0
VERTEX
8
DIMENSION
10
113.1099098
20
-163.6797402
0
SEQEND
8
DIMENSION
0
POLYLINE
8
DIMENSION
62
18
6
CONTINUOUS
66
1
40
0
41
0
70
1
0
VERTEX
8
DIMENSION
10
-23.90084541
20
146.0365236
0
VERTEX
8
DIMENSION
10
-23.66410521
20
145.0649506
0
VERTEX
8
DIMENSION
10
-23.34608485
20
145.2045136
0
SEQEND
8
DIMENSION
0
POLYLINE
8
DIMENSION
62
18
6
CONTINUOUS
66
1
40
0
41
0
70
1
0
VERTEX
8
DIMENSION
10
112.1942067
20
-164.0815957
0
VERTEX
8
DIMENSION
10
111.9574665
20
-163.1100227
0
VERTEX
8
DIMENSION
10
111.6394461
20
-163.2495856
0
SEQEND
8
DIMENSION
0
POLYLINE
8
DIMENSION
62
18
6
CONTINUOUS
66
1
40
0
41
0
0
VERTEX
8
DIMENSION
10
-23.90084541
20
146.0365236
0
VERTEX
8
DIMENSION
10
112.1942067
20
-164.0815957
0
SEQEND
8
DIMENSION
0
TEXT
8
DIMENSION
62
18
6
CONTINUOUS
10
45.97808685
20
-8.218825099
11
45.97808685
21
-8.218825099
40
4
41
1.25
1
13'4"
50
293.6942241
51
0
71
0
72
1
73
0
0
POLYLINE
8
DIMENSION
62
18
6
CONTINUOUS
66
1
40
0
41
0
0
VERTEX
8
DIMENSION
10
-235.6294911
20
-168.1001504
0
VERTEX
8
DIMENSION
10
-235.6294911
20
-179.1001504
0
SEQEND
8
DIMENSION
0
POLYLINE
8
DIMENSION
62
18
6
CONTINUOUS
66
1
40
0
41
0
0
VERTEX
8
DIMENSION
10
103.0371756
20
-168.1001504
0
VERTEX
8
DIMENSION
10
103.0371756
20
-179.1001504
0
SEQEND
8
DIMENSION
0
POLYLINE
8
DIMENSION
62
18
6
CONTINUOUS
66
1
40
0
41
0
70
1
0
VERTEX
8
DIMENSION
10
-235.6294911
20
-178.1001504
0
VERTEX
8
DIMENSION
10
-234.6446833
20
-178.2737985
0
VERTEX
8
DIMENSION
10
-234.6446833
20
-177.9265022
0
SEQEND
8
DIMENSION
0
POLYLINE
8
DIMENSION
62
18
6
CONTINUOUS
66
1
40
0
41
0
70
1
0
VERTEX
8
DIMENSION
10
103.0371756
20
-178.1001504
0
VERTEX
8
DIMENSION
10
102.0523678
20
-177.9265022
0
VERTEX
8
DIMENSION
10
102.0523678
20
-178.2737985
0
SEQEND
8
DIMENSION
0
POLYLINE
8
DIMENSION
62
18
6
CONTINUOUS
66
1
40
0
41
0
0
VERTEX
8
DIMENSION
10
-235.6294911
20
-178.1001504
0
VERTEX
8
DIMENSION
10
103.0371756
20
-178.1001504
0
SEQEND
8
DIMENSION
0
TEXT
8
DIMENSION
62
18
6
CONTINUOUS
10
-66.29615774
20
-176.1001504
11
-66.29615774
21
-176.1001504
40
4
41
1.25
1
13'4"
50
0
51
0
71
0
72
1
73
0
0
TEXT
8
TEXT
62
18
6
CONTINUOUS
10
-55.29472688
20
-89.32099494
11
-55.29472688
21
-89.32099494
40
7.62
41
1.25
1
SUNFISH
50
0
51
0
71
0
72
1
73
0
0
TEXT
8
TEXT
62
18
6
CONTINUOUS
10
-55.29472688
20
-98.84599494
11
-55.29472688
21
-98.84599494
40
7.62
41
1.25
1
LATEEN
50
0
51
0
71
0
72
1
73
0
0
TEXT
8
TEXT
62
18
6
CONTINUOUS
10
-55.29472688
20
-108.3709949
11
-55.29472688
21
-108.3709949
40
7.62
41
1.25
1
85 sq. ft.
50
0
51
0
71
0
72
1
73
0
0
TEXT
8
TEXT
62
18
6
CONTINUOUS
10
-55.29472688
20
-117.8959949
11
-55.29472688
21
-117.8959949
40
7.62
41
1.25
1
Grommets on Luff & Foot
50
0
51
0
71
0
72
1
73
0
0
TEXT
8
TEXT
62
18
6
CONTINUOUS
10
-55.29472688
20
-127.4209949
11
-55.29472688
21
-127.4209949
40
7.62
41
1.25
1
Bow ->
50
0
51
0
71
0
72
1
73
0
0
ENDSEC
0
EOF
