 0
SECTION
 2
HEADER
 9
$ACADVER
 1
AC1009
 9
$LIMMIN
10
0.0
20
0.0
 9
$LIMMAX
10
410
20
287
 9
$LTSCALE
40
1.0
 9
$ATTMODE
70
0
 9
$DIMSCALE
40
1.0
 9
$DIMEXO
40
0.0
 9
$LUNITS
70
2
 9
$LUPREC
70
4
 9
$AUNITS
70
0
 9
$AUPREC
70
0
 9
$ELEVATION
40
0.0
 9
$THICKNESS
40
0.0
 9
$LIMCHECK
70
0
 9
$BLIPMODE
70
1
 9
$ANGBASE
50
0.0
 9
$ANGDIR
70
0
 9
$PDMODE
70
67
 9
$PDSIZE
40
-1
 9
$COORDS
70
2
 9
$DWGCODEPAGE
 3
iso8859-1
 0
ENDSEC
0
SECTION
2
TABLES
0
TABLE
2
LTYPE
70
10
0
LTYPE
2
CONTINUOUS
70
64
3
Default-Style
72
65
73
0
40
0
0
LTYPE
2
DASHED_LINE_WIDE
70
64
3
Dashed Line Wide
72
65
73
2
40
6.25
49
5
49
-1.25
0
LTYPE
2
DASHED_LINE_NARROW
70
64
3
Dashed Line Narrow
72
65
73
2
40
12.5
49
10
49
-2.5
0
LTYPE
2
DASH-DOT_LINE_WIDE
70
64
3
Dash-Dot Line Wide
72
65
73
4
40
13.75
49
10
49
-1.25
49
1.25
49
-1.25
0
LTYPE
2
DASH-DOT_LINE_NARROW
70
64
3
Dash-Dot line Narrow
72
65
73
4
40
27.5
49
20
49
-2.5
49
2.5
49
-2.5
0
LTYPE
2
DASH-DOT-DOT_LINE_WIDE
70
64
3
Dash-Dot-Dot Line Wide
72
65
73
6
40
16.25
49
10
49
-1.25
49
1.25
49
-1.25
49
1.25
49
-1.25
0
LTYPE
2
DASH-DOT-DOT_LINE_NARROW
70
64
3
Dash-Dot-Dot Line Narrow
72
65
73
6
40
32.5
49
20
49
-2.5
49
2.5
49
-2.5
49
2.5
49
-2.5
0
LTYPE
2
DOTTED_LINE_WIDE
70
64
3
Dotted Line Wide
72
65
73
2
40
6.25
49
1.25
49
-5
0
LTYPE
2
DOTTED_LINE_NARROW
70
64
3
Dotted Line Narrow
72
65
73
2
40
12.5
49
2.5
49
-10
0
LTYPE
2
GEOMETRY_LINE_1
70
64
3
Geometry Line 1
72
65
73
2
40
.5
49
.25
49
-0.25
0
ENDTAB
0
TABLE
2
LAYER
70
16
0
LAYER
2
0
70
64
62
7
6
CONTINUOUS
0
LAYER
2
DRAWING
70
64
62
18
6
CONTINUOUS
0
LAYER
2
HATCHING
70
64
62
18
6
CONTINUOUS
0
LAYER
2
DIMENSION
70
64
62
18
6
CONTINUOUS
0
LAYER
2
TEXT
70
64
62
18
6
CONTINUOUS
0
LAYER
2
BLOCK
70
64
62
18
6
CONTINUOUS
0
LAYER
2
MARKING
70
64
62
-132
6
CONTINUOUS
0
LAYER
2
GEOMETRY
70
64
62
18
6
CONTINUOUS
0
LAYER
2
DOCUMENTATION$DRAWING
70
64
62
18
6
CONTINUOUS
0
LAYER
2
DOCUMENTATION$HATCHING
70
64
62
18
6
CONTINUOUS
0
LAYER
2
DOCUMENTATION$DIMENSION
70
64
62
-18
6
CONTINUOUS
0
LAYER
2
DOCUMENTATION$TEXT
70
64
62
18
6
CONTINUOUS
0
LAYER
2
DOCUMENTATION$BLOCK
70
64
62
18
6
CONTINUOUS
0
LAYER
2
DOCUMENTATION$MARKING
70
64
62
18
6
CONTINUOUS
0
LAYER
2
DOCUMENTATION$GEOMETRY
70
64
62
18
6
CONTINUOUS
0
LAYER
2
FILL
70
64
62
-18
6
CONTINUOUS
0
ENDTAB
0
ENDSEC
0
SECTION
2
BLOCKS
0
ENDSEC
0
SECTION
2
ENTITIES
0
POLYLINE
8
DRAWING
62
18
6
CONTINUOUS
66
1
40
0
41
0
70
1
0
VERTEX
8
DRAWING
10
-51.73706501
20
-64.83799036
42
1
0
VERTEX
8
DRAWING
10
-64.43706501
20
-64.83799036
42
1
0
VERTEX
8
DRAWING
10
-51.73706501
20
-64.83799036
0
SEQEND
8
DRAWING
0
POLYLINE
8
DRAWING
62
18
6
CONTINUOUS
66
1
40
0
41
0
0
VERTEX
8
DRAWING
10
-66.55373167
20
-64.83799036
0
VERTEX
8
DRAWING
10
-49.62039834
20
-64.83799036
0
SEQEND
8
DRAWING
0
POLYLINE
8
DRAWING
62
18
6
CONTINUOUS
66
1
40
0
41
0
0
VERTEX
8
DRAWING
10
-58.08706501
20
-56.3713237
0
VERTEX
8
DRAWING
10
-58.08706501
20
-73.30465703
0
SEQEND
8
DRAWING
0
POLYLINE
8
DRAWING
62
18
6
CONTINUOUS
66
1
40
0
41
0
0
VERTEX
8
DRAWING
10
-205.6363706
20
-169.4952945
0
VERTEX
8
DRAWING
10
-67.7884539
20
144.476618
0
SEQEND
8
DRAWING
0
POLYLINE
8
DRAWING
62
18
6
CONTINUOUS
66
1
40
0
41
0
0
VERTEX
8
DRAWING
10
-67.7884539
20
144.476618
0
VERTEX
8
DRAWING
10
99.16362944
20
-169.4952945
0
SEQEND
8
DRAWING
0
POLYLINE
8
DRAWING
62
18
6
CONTINUOUS
66
1
40
0
41
0
0
VERTEX
8
DRAWING
10
-205.6363706
20
-169.4952945
0
VERTEX
8
DRAWING
10
99.16362944
20
-169.4952945
0
SEQEND
8
DRAWING
0
TEXT
8
TEXT
62
18
6
CONTINUOUS
10
-59.09048398
20
-87.93844401
11
-59.09048398
21
-87.93844401
40
7.62
41
1.25
1
SNARK MARK II
50
0
51
0
71
0
72
1
73
0
0
TEXT
8
TEXT
62
18
6
CONTINUOUS
10
-59.09048398
20
-97.46344401
11
-59.09048398
21
-97.46344401
40
7.62
41
1.25
1
LATEEN
50
0
51
0
71
0
72
1
73
0
0
TEXT
8
TEXT
62
18
6
CONTINUOUS
10
-59.09048398
20
-106.988444
11
-59.09048398
21
-106.988444
40
7.62
41
1.25
1
74 sq. ft.
50
0
51
0
71
0
72
1
73
0
0
TEXT
8
TEXT
62
18
6
CONTINUOUS
10
-59.09048398
20
-116.513444
11
-59.09048398
21
-116.513444
40
7.62
41
1.25
1
Boom on Foot
50
0
51
0
71
0
72
1
73
0
0
TEXT
8
TEXT
62
18
6
CONTINUOUS
10
-59.09048398
20
-126.038444
11
-59.09048398
21
-126.038444
40
7.62
41
1.25
1
Bow ->
50
0
51
0
71
0
72
1
73
0
0
POLYLINE
8
DIMENSION
62
18
6
CONTINUOUS
66
1
40
0
41
0
0
VERTEX
8
DIMENSION
10
99.16362944
20
-169.4952945
0
VERTEX
8
DIMENSION
10
108.8759214
20
-164.33086
0
SEQEND
8
DIMENSION
0
POLYLINE
8
DIMENSION
62
18
6
CONTINUOUS
66
1
40
0
41
0
0
VERTEX
8
DIMENSION
10
-67.7884539
20
144.476618
0
VERTEX
8
DIMENSION
10
-58.07616189
20
149.6410525
0
SEQEND
8
DIMENSION
0
POLYLINE
8
DIMENSION
62
18
6
CONTINUOUS
66
1
40
0
41
0
70
1
0
VERTEX
8
DIMENSION
10
107.9929858
20
-164.8003541
0
VERTEX
8
DIMENSION
10
107.6839446
20
-163.8493054
0
VERTEX
8
DIMENSION
10
107.3773043
20
-164.012359
0
SEQEND
8
DIMENSION
0
POLYLINE
8
DIMENSION
62
18
6
CONTINUOUS
66
1
40
0
41
0
70
1
0
VERTEX
8
DIMENSION
10
-58.95909752
20
149.1715585
0
VERTEX
8
DIMENSION
10
-58.65005631
20
148.2205098
0
VERTEX
8
DIMENSION
10
-58.34341598
20
148.3835634
0
SEQEND
8
DIMENSION
0
POLYLINE
8
DIMENSION
62
18
6
CONTINUOUS
66
1
40
0
41
0
0
VERTEX
8
DIMENSION
10
107.9929858
20
-164.8003541
0
VERTEX
8
DIMENSION
10
-58.95909752
20
149.1715585
0
SEQEND
8
DIMENSION
0
TEXT
8
DIMENSION
62
18
6
CONTINUOUS
10
26.28281542
20
-6.875409699
11
26.28281542
21
-6.875409699
40
4
41
1.25
1
14'0
50
298.0014591
51
0
71
0
72
1
73
0
0
POLYLINE
8
DIMENSION
62
18
6
CONTINUOUS
66
1
40
0
41
0
0
VERTEX
8
DIMENSION
10
-205.6363706
20
-169.4952945
0
VERTEX
8
DIMENSION
10
-215.7083771
20
-165.0732267
0
SEQEND
8
DIMENSION
0
POLYLINE
8
DIMENSION
62
18
6
CONTINUOUS
66
1
40
0
41
0
0
VERTEX
8
DIMENSION
10
-67.78845866
20
144.4766155
0
VERTEX
8
DIMENSION
10
-77.86046523
20
148.8986833
0
SEQEND
8
DIMENSION
0
POLYLINE
8
DIMENSION
62
18
6
CONTINUOUS
66
1
40
0
41
0
70
1
0
VERTEX
8
DIMENSION
10
-214.7927402
20
-165.4752329
0
VERTEX
8
DIMENSION
10
-214.2378427
20
-164.6433142
0
VERTEX
8
DIMENSION
10
-214.5558401
20
-164.5036989
0
SEQEND
8
DIMENSION
0
POLYLINE
8
DIMENSION
62
18
6
CONTINUOUS
66
1
40
0
41
0
70
1
0
VERTEX
8
DIMENSION
10
-76.94482827
20
148.4966771
0
VERTEX
8
DIMENSION
10
-77.49972574
20
147.6647584
0
VERTEX
8
DIMENSION
10
-77.18172836
20
147.5251431
0
SEQEND
8
DIMENSION
0
POLYLINE
8
DIMENSION
62
18
6
CONTINUOUS
66
1
40
0
41
0
0
VERTEX
8
DIMENSION
10
-214.7927402
20
-165.4752329
0
VERTEX
8
DIMENSION
10
-76.94482827
20
148.4966771
0
SEQEND
8
DIMENSION
0
TEXT
8
DIMENSION
62
18
6
CONTINUOUS
10
-147.7000581
20
-7.68526557
11
-147.7000581
21
-7.68526557
40
4
41
1.25
1
13'6"
50
66.29634648
51
0
71
0
72
1
73
0
0
POLYLINE
8
DIMENSION
62
18
6
CONTINUOUS
66
1
40
0
41
0
0
VERTEX
8
DIMENSION
10
-205.6363706
20
-169.4952945
0
VERTEX
8
DIMENSION
10
-205.6363706
20
-180.4952945
0
SEQEND
8
DIMENSION
0
POLYLINE
8
DIMENSION
62
18
6
CONTINUOUS
66
1
40
0
41
0
0
VERTEX
8
DIMENSION
10
99.16362944
20
-169.4952945
0
VERTEX
8
DIMENSION
10
99.16362944
20
-180.4952945
0
SEQEND
8
DIMENSION
0
POLYLINE
8
DIMENSION
62
18
6
CONTINUOUS
66
1
40
0
41
0
70
1
0
VERTEX
8
DIMENSION
10
-205.6363706
20
-179.4952945
0
VERTEX
8
DIMENSION
10
-204.6515628
20
-179.6689427
0
VERTEX
8
DIMENSION
10
-204.6515628
20
-179.3216464
0
SEQEND
8
DIMENSION
0
POLYLINE
8
DIMENSION
62
18
6
CONTINUOUS
66
1
40
0
41
0
70
1
0
VERTEX
8
DIMENSION
10
99.16362944
20
-179.4952945
0
VERTEX
8
DIMENSION
10
98.17882169
20
-179.3216464
0
VERTEX
8
DIMENSION
10
98.17882169
20
-179.6689427
0
SEQEND
8
DIMENSION
0
POLYLINE
8
DIMENSION
62
18
6
CONTINUOUS
66
1
40
0
41
0
0
VERTEX
8
DIMENSION
10
-205.6363706
20
-179.4952945
0
VERTEX
8
DIMENSION
10
99.16362944
20
-179.4952945
0
SEQEND
8
DIMENSION
0
TEXT
8
DIMENSION
62
18
6
CONTINUOUS
10
-53.23637056
20
-177.4952945
11
-53.23637056
21
-177.4952945
40
4
41
1.25
1
12'0"
50
0
51
0
71
0
72
1
73
0
0
ENDSEC
0
EOF
