 0
SECTION
 2
HEADER
 9
$ACADVER
 1
AC1009
 9
$LIMMIN
10
0.0
20
0.0
 9
$LIMMAX
10
410
20
287
 9
$LTSCALE
40
1.0
 9
$ATTMODE
70
0
 9
$DIMSCALE
40
1.0
 9
$DIMEXO
40
0.0
 9
$LUNITS
70
2
 9
$LUPREC
70
4
 9
$AUNITS
70
0
 9
$AUPREC
70
0
 9
$ELEVATION
40
0.0
 9
$THICKNESS
40
0.0
 9
$LIMCHECK
70
0
 9
$BLIPMODE
70
1
 9
$ANGBASE
50
0.0
 9
$ANGDIR
70
0
 9
$PDMODE
70
67
 9
$PDSIZE
40
-1
 9
$COORDS
70
2
 9
$DWGCODEPAGE
 3
iso8859-1
 0
ENDSEC
0
SECTION
2
TABLES
0
TABLE
2
LTYPE
70
10
0
LTYPE
2
CONTINUOUS
70
64
3
Default-Style
72
65
73
0
40
0
0
LTYPE
2
DASHED_LINE_WIDE
70
64
3
Dashed Line Wide
72
65
73
2
40
6.25
49
5
49
-1.25
0
LTYPE
2
DASHED_LINE_NARROW
70
64
3
Dashed Line Narrow
72
65
73
2
40
12.5
49
10
49
-2.5
0
LTYPE
2
DASH-DOT_LINE_WIDE
70
64
3
Dash-Dot Line Wide
72
65
73
4
40
13.75
49
10
49
-1.25
49
1.25
49
-1.25
0
LTYPE
2
DASH-DOT_LINE_NARROW
70
64
3
Dash-Dot line Narrow
72
65
73
4
40
27.5
49
20
49
-2.5
49
2.5
49
-2.5
0
LTYPE
2
DASH-DOT-DOT_LINE_WIDE
70
64
3
Dash-Dot-Dot Line Wide
72
65
73
6
40
16.25
49
10
49
-1.25
49
1.25
49
-1.25
49
1.25
49
-1.25
0
LTYPE
2
DASH-DOT-DOT_LINE_NARROW
70
64
3
Dash-Dot-Dot Line Narrow
72
65
73
6
40
32.5
49
20
49
-2.5
49
2.5
49
-2.5
49
2.5
49
-2.5
0
LTYPE
2
DOTTED_LINE_WIDE
70
64
3
Dotted Line Wide
72
65
73
2
40
6.25
49
1.25
49
-5
0
LTYPE
2
DOTTED_LINE_NARROW
70
64
3
Dotted Line Narrow
72
65
73
2
40
12.5
49
2.5
49
-10
0
LTYPE
2
GEOMETRY_LINE_1
70
64
3
Geometry Line 1
72
65
73
2
40
.5
49
.25
49
-0.25
0
ENDTAB
0
TABLE
2
LAYER
70
17
0
LAYER
2
0
70
64
62
7
6
CONTINUOUS
0
LAYER
2
DRAWING
70
64
62
18
6
CONTINUOUS
0
LAYER
2
HATCHING
70
64
62
18
6
CONTINUOUS
0
LAYER
2
DIMENSION
70
64
62
18
6
CONTINUOUS
0
LAYER
2
TEXT
70
64
62
18
6
CONTINUOUS
0
LAYER
2
BLOCK
70
64
62
18
6
CONTINUOUS
0
LAYER
2
MARKING
70
64
62
-132
6
CONTINUOUS
0
LAYER
2
GEOMETRY
70
64
62
18
6
CONTINUOUS
0
LAYER
2
DOCUMENTATION$DRAWING
70
64
62
18
6
CONTINUOUS
0
LAYER
2
DOCUMENTATION$HATCHING
70
64
62
18
6
CONTINUOUS
0
LAYER
2
DOCUMENTATION$DIMENSION
70
64
62
-18
6
CONTINUOUS
0
LAYER
2
DOCUMENTATION$TEXT
70
64
62
18
6
CONTINUOUS
0
LAYER
2
DOCUMENTATION$BLOCK
70
64
62
18
6
CONTINUOUS
0
LAYER
2
DOCUMENTATION$MARKING
70
64
62
18
6
CONTINUOUS
0
LAYER
2
DOCUMENTATION$GEOMETRY
70
64
62
18
6
CONTINUOUS
0
LAYER
2
DRAWINGD4
70
64
62
18
6
CONTINUOUS
0
LAYER
2
D4MATH
70
64
62
-18
6
CONTINUOUS
0
ENDTAB
0
ENDSEC
0
SECTION
2
BLOCKS
0
ENDSEC
0
SECTION
2
ENTITIES
0
POLYLINE
8
DRAWINGD4
62
18
6
CONTINUOUS
66
1
40
0
41
0
70
1
0
VERTEX
8
DRAWINGD4
10
27.06641019
20
-54.2504926
42
1
0
VERTEX
8
DRAWINGD4
10
14.36641019
20
-54.2504926
42
1
0
VERTEX
8
DRAWINGD4
10
27.06641019
20
-54.2504926
0
SEQEND
8
DRAWINGD4
0
POLYLINE
8
DRAWINGD4
62
18
6
CONTINUOUS
66
1
40
0
41
0
0
VERTEX
8
DRAWINGD4
10
20.55149691
20
-44.93812923
0
VERTEX
8
DRAWINGD4
10
20.55149691
20
-61.87146256
0
SEQEND
8
DRAWINGD4
0
POLYLINE
8
DRAWINGD4
62
18
6
CONTINUOUS
66
1
40
0
41
0
0
VERTEX
8
DRAWINGD4
10
12.24974352
20
-54.2504926
0
VERTEX
8
DRAWINGD4
10
29.18307685
20
-54.2504926
0
SEQEND
8
DRAWINGD4
0
POLYLINE
8
DRAWING
62
18
6
CONTINUOUS
66
1
40
0
41
0
0
VERTEX
8
DRAWING
10
103.0371756
20
35.09984963
0
VERTEX
8
DRAWING
10
103.0371756
20
-168.1001504
0
SEQEND
8
DRAWING
0
POLYLINE
8
DRAWING
62
18
6
CONTINUOUS
66
1
40
0
41
0
0
VERTEX
8
DRAWING
10
16.02540566
20
124.6810912
0
VERTEX
8
DRAWING
10
-104.3654027
20
-164.5282754
0
SEQEND
8
DRAWING
0
POLYLINE
8
DRAWING
62
18
6
CONTINUOUS
66
1
40
0
41
0
0
VERTEX
8
DRAWING
10
-104.3654027
20
-164.5282754
0
VERTEX
8
DRAWING
10
103.0371756
20
-168.1001504
0
SEQEND
8
DRAWING
0
POLYLINE
8
DRAWING
62
18
6
CONTINUOUS
66
1
40
0
41
0
0
VERTEX
8
DRAWING
10
16.02540566
20
124.6810912
0
VERTEX
8
DRAWING
10
103.0371756
20
35.09984963
0
SEQEND
8
DRAWING
0
POLYLINE
8
DRAWING
62
18
6
DASHED_LINE_NARROW
66
1
40
0
41
0
0
VERTEX
8
DRAWING
10
-104.3654027
20
-164.5282754
0
VERTEX
8
DRAWING
10
103.0371756
20
35.09984963
0
SEQEND
8
DRAWING
0
POLYLINE
8
DIMENSION
62
18
6
CONTINUOUS
66
1
40
0
41
0
0
VERTEX
8
DIMENSION
10
16.02540566
20
124.6810912
0
VERTEX
8
DIMENSION
10
23.9159194
20
132.3452802
0
SEQEND
8
DIMENSION
0
POLYLINE
8
DIMENSION
62
18
6
CONTINUOUS
66
1
40
0
41
0
0
VERTEX
8
DIMENSION
10
103.0371756
20
35.09984963
0
VERTEX
8
DIMENSION
10
110.9276893
20
42.76403863
0
SEQEND
8
DIMENSION
0
POLYLINE
8
DIMENSION
62
18
6
CONTINUOUS
66
1
40
0
41
0
70
1
0
VERTEX
8
DIMENSION
10
23.19859997
20
131.6485357
0
VERTEX
8
DIMENSION
10
23.7601981
20
130.8211256
0
VERTEX
8
DIMENSION
10
24.00932052
20
131.0631024
0
SEQEND
8
DIMENSION
0
POLYLINE
8
DIMENSION
62
18
6
CONTINUOUS
66
1
40
0
41
0
70
1
0
VERTEX
8
DIMENSION
10
110.2103699
20
42.06729418
0
VERTEX
8
DIMENSION
10
109.6487718
20
42.89470432
0
VERTEX
8
DIMENSION
10
109.3996493
20
42.65272751
0
SEQEND
8
DIMENSION
0
POLYLINE
8
DIMENSION
62
18
6
CONTINUOUS
66
1
40
0
41
0
0
VERTEX
8
DIMENSION
10
23.19859997
20
131.6485357
0
VERTEX
8
DIMENSION
10
110.2103699
20
42.06729418
0
SEQEND
8
DIMENSION
0
TEXT
8
DIMENSION
62
18
6
CONTINUOUS
10
68.13912379
20
88.25140386
11
68.13912379
21
88.25140386
40
4
41
1.25
1
4'11"
50
314.1663912
51
0
71
0
72
1
73
0
0
POLYLINE
8
DIMENSION
62
18
6
CONTINUOUS
66
1
40
0
41
0
0
VERTEX
8
DIMENSION
10
16.02540566
20
124.6810912
0
VERTEX
8
DIMENSION
10
5.870150187
20
128.9084765
0
SEQEND
8
DIMENSION
0
POLYLINE
8
DIMENSION
62
18
6
CONTINUOUS
66
1
40
0
41
0
0
VERTEX
8
DIMENSION
10
-104.3654027
20
-164.5282754
0
VERTEX
8
DIMENSION
10
-114.5206582
20
-160.3008901
0
SEQEND
8
DIMENSION
0
POLYLINE
8
DIMENSION
62
18
6
CONTINUOUS
66
1
40
0
41
0
70
1
0
VERTEX
8
DIMENSION
10
6.79335523
20
128.5241687
0
VERTEX
8
DIMENSION
10
6.254573103
20
127.6817236
0
VERTEX
8
DIMENSION
10
6.57519885
20
127.5482549
0
SEQEND
8
DIMENSION
0
POLYLINE
8
DIMENSION
62
18
6
CONTINUOUS
66
1
40
0
41
0
70
1
0
VERTEX
8
DIMENSION
10
-113.5974531
20
-160.6851978
0
VERTEX
8
DIMENSION
10
-113.058671
20
-159.8427527
0
VERTEX
8
DIMENSION
10
-113.3792968
20
-159.709284
0
SEQEND
8
DIMENSION
0
POLYLINE
8
DIMENSION
62
18
6
CONTINUOUS
66
1
40
0
41
0
0
VERTEX
8
DIMENSION
10
6.79335523
20
128.5241687
0
VERTEX
8
DIMENSION
10
-113.5974531
20
-160.6851978
0
SEQEND
8
DIMENSION
0
TEXT
8
DIMENSION
62
18
6
CONTINUOUS
10
-55.24845904
20
-15.31189907
11
-55.24845904
21
-15.31189907
40
4
41
1.25
1
12'4"
50
67.39922863
51
0
71
0
72
1
73
0
0
POLYLINE
8
DIMENSION
62
18
6
CONTINUOUS
66
1
40
0
41
0
0
VERTEX
8
DIMENSION
10
-104.3654027
20
-164.5282754
0
VERTEX
8
DIMENSION
10
-104.554816
20
-175.5266445
0
SEQEND
8
DIMENSION
0
POLYLINE
8
DIMENSION
62
18
6
CONTINUOUS
66
1
40
0
41
0
0
VERTEX
8
DIMENSION
10
103.0371756
20
-168.1001504
0
VERTEX
8
DIMENSION
10
102.8477623
20
-179.0985195
0
SEQEND
8
DIMENSION
0
POLYLINE
8
DIMENSION
62
18
6
CONTINUOUS
66
1
40
0
41
0
70
1
0
VERTEX
8
DIMENSION
10
-104.5375966
20
-174.5267927
0
VERTEX
8
DIMENSION
10
-103.555925
20
-174.7173729
0
VERTEX
8
DIMENSION
10
-103.5499447
20
-174.3701281
0
SEQEND
8
DIMENSION
0
POLYLINE
8
DIMENSION
62
18
6
CONTINUOUS
66
1
40
0
41
0
70
1
0
VERTEX
8
DIMENSION
10
102.8649817
20
-178.0986677
0
VERTEX
8
DIMENSION
10
101.8833101
20
-177.9080875
0
VERTEX
8
DIMENSION
10
101.8773299
20
-178.2553324
0
SEQEND
8
DIMENSION
0
POLYLINE
8
DIMENSION
62
18
6
CONTINUOUS
66
1
40
0
41
0
0
VERTEX
8
DIMENSION
10
-104.5375966
20
-174.5267927
0
VERTEX
8
DIMENSION
10
102.8649817
20
-178.0986677
0
SEQEND
8
DIMENSION
0
TEXT
8
DIMENSION
62
18
6
CONTINUOUS
10
-0.8018686632
20
-174.3130267
11
-0.8018686632
21
-174.3130267
40
4
41
1.25
1
8'2"
50
359.013353
51
0
71
0
72
1
73
0
0
POLYLINE
8
DIMENSION
62
18
6
CONTINUOUS
66
1
40
0
41
0
0
VERTEX
8
DIMENSION
10
-104.3654027
20
-164.5282754
0
VERTEX
8
DIMENSION
10
-111.9936196
20
-156.60298
0
SEQEND
8
DIMENSION
0
POLYLINE
8
DIMENSION
62
18
6
CONTINUOUS
66
1
40
0
41
0
0
VERTEX
8
DIMENSION
10
103.0371756
20
35.09984963
0
VERTEX
8
DIMENSION
10
95.40895868
20
43.02514501
0
SEQEND
8
DIMENSION
0
POLYLINE
8
DIMENSION
62
18
6
CONTINUOUS
66
1
40
0
41
0
70
1
0
VERTEX
8
DIMENSION
10
-111.3001454
20
-157.3234614
0
VERTEX
8
DIMENSION
10
-110.4701892
20
-156.7656328
0
VERTEX
8
DIMENSION
10
-110.7110302
20
-156.5154123
0
SEQEND
8
DIMENSION
0
POLYLINE
8
DIMENSION
62
18
6
CONTINUOUS
66
1
40
0
41
0
70
1
0
VERTEX
8
DIMENSION
10
96.10243294
20
42.30466361
0
VERTEX
8
DIMENSION
10
95.27247673
20
41.74683506
0
VERTEX
8
DIMENSION
10
95.51331782
20
41.49661449
0
SEQEND
8
DIMENSION
0
POLYLINE
8
DIMENSION
62
18
6
CONTINUOUS
66
1
40
0
41
0
0
VERTEX
8
DIMENSION
10
-111.3001454
20
-157.3234614
0
VERTEX
8
DIMENSION
10
96.10243294
20
42.30466361
0
SEQEND
8
DIMENSION
0
TEXT
8
DIMENSION
62
18
6
CONTINUOUS
10
-8.985804738
20
-56.0684361
11
-8.985804738
21
-56.0684361
40
4
41
1.25
1
11'4"
50
43.90576018
51
0
71
0
72
1
73
0
0
TEXT
8
TEXT
62
18
6
CONTINUOUS
10
21.08253449
20
-85.81482347
11
21.08253449
21
-85.81482347
40
7.62
41
1.25
1
BOLGER
50
0
51
0
71
0
72
1
73
0
0
TEXT
8
TEXT
62
18
6
CONTINUOUS
10
21.08253449
20
-95.33982347
11
21.08253449
21
-95.33982347
40
7.62
41
1.25
1
CARTOPPER
50
0
51
0
71
0
72
1
73
0
0
TEXT
8
TEXT
62
18
6
CONTINUOUS
10
21.08253449
20
-104.8648235
11
21.08253449
21
-104.8648235
40
7.62
41
1.25
1
SPRITSAIL
50
0
51
0
71
0
72
1
73
0
0
TEXT
8
TEXT
62
18
6
CONTINUOUS
10
21.08253449
20
-114.3898235
11
21.08253449
21
-114.3898235
40
7.62
41
1.25
1
61 sq. ft.
50
0
51
0
71
0
72
1
73
0
0
TEXT
8
TEXT
62
18
6
CONTINUOUS
10
21.08253449
20
-123.9148235
11
21.08253449
21
-123.9148235
40
7.62
41
1.25
1
Loose Footed
50
0
51
0
71
0
72
1
73
0
0
TEXT
8
TEXT
62
18
6
CONTINUOUS
10
21.08253449
20
-133.4398235
11
21.08253449
21
-133.4398235
40
7.62
41
1.25
1
Grommets on Luff
50
0
51
0
71
0
72
1
73
0
0
POLYLINE
8
DIMENSION
62
18
6
CONTINUOUS
66
1
40
0
41
0
0
VERTEX
8
DIMENSION
10
103.0371756
20
35.09984963
0
VERTEX
8
DIMENSION
10
114.0371756
20
35.09984963
0
SEQEND
8
DIMENSION
0
POLYLINE
8
DIMENSION
62
18
6
CONTINUOUS
66
1
40
0
41
0
0
VERTEX
8
DIMENSION
10
103.0371756
20
-168.1001504
0
VERTEX
8
DIMENSION
10
114.0371756
20
-168.1001504
0
SEQEND
8
DIMENSION
0
POLYLINE
8
DIMENSION
62
18
6
CONTINUOUS
66
1
40
0
41
0
70
1
0
VERTEX
8
DIMENSION
10
113.0371756
20
35.09984963
0
VERTEX
8
DIMENSION
10
112.8635274
20
34.11504188
0
VERTEX
8
DIMENSION
10
113.2108238
20
34.11504188
0
SEQEND
8
DIMENSION
0
POLYLINE
8
DIMENSION
62
18
6
CONTINUOUS
66
1
40
0
41
0
70
1
0
VERTEX
8
DIMENSION
10
113.0371756
20
-168.1001504
0
VERTEX
8
DIMENSION
10
113.2108238
20
-167.1153426
0
VERTEX
8
DIMENSION
10
112.8635274
20
-167.1153426
0
SEQEND
8
DIMENSION
0
POLYLINE
8
DIMENSION
62
18
6
CONTINUOUS
66
1
40
0
41
0
0
VERTEX
8
DIMENSION
10
113.0371756
20
35.09984963
0
VERTEX
8
DIMENSION
10
113.0371756
20
-168.1001504
0
SEQEND
8
DIMENSION
0
TEXT
8
DIMENSION
62
18
6
CONTINUOUS
10
111.0366716
20
-66.50015037
11
111.0366716
21
-66.50015037
40
4.001008
41
1.25
1
8
50
90
51
0
71
0
72
1
73
0
0
ENDSEC
0
EOF
